Регистрируйся на vmuzike.net и ты сможешь качать и слушать музыку без рекламы!

Топ песен




Текст песни Гражданская Оборона - Поезд на малую землю

Поезд на малую землю Гражданская Оборона В избранное Скачать

Аккорды

Cm,Fm,G,Cm
Cm,Fm,G,Cm
Fm,A#,D#,Cm
Fm,G,Cm.

Cm,Fm,G,Cm
Cm,Fm,G,Cm
Fm,A#,D#,Cm
Fm,G,Cm.

G#,C#,D#
G#,C#,D#
G#,C#,D#
G#,C#,D#

Cm,Fm,G,Cm
Cm,Fm,G,Cm
Fm,A#,D#,Cm
Fm,G,Cm.
Fm,G,Cm.
Fm,G,Cm.
Cm.

Табы:

D-5--5--8--6--6--5--6--5--0--1
A---3---------------------------

D-5--5--8--6--6--5--6--5--0--1
A---3---------------------------

D--3--5--6--10--8

D--6--5--6--5--3--
A------------------3

D--3--5--6--8--5--5--
A---------------------3

D-5--5--8--6--6--5--6--5--0--1
A---3---------------------------

D-5--5--8--6--6--5--6--5--0--1
A---3---------------------------

D--3--5--6--10--8

D--6--5--6--5--3--
A------------------3

D--3--5--6--8--5--5--
A---------------------3
----------------------------------
D--5--6--3-----3--6--10--8--5--1
A------------4--------------------

D--5--6--3-----3--6--10--8
A------------4---------------

D--5--6--3-----3--6--10--8--5--1
A------------4--------------------

D--5--6--3-----3--6--10--8
A------------4---------------
---------------------------------------

D-5--5--8--6--6--5--6--5--0--1
A---3---------------------------

D-5--5--8--6--6--5--6--5--0--1
A---3---------------------------

D--3--5--6--10--8

D--6--5--6--5--3--
A------------------3

D--3--5--6--8--5--5--
A---------------------3

D--3--5--6--8--5--5--
A---------------------3

D--3--5--6--8--9--9--
A---------------------3